  0
SECTION
  2
HEADER
  9
$ACADVER
  1
AC1009
  9
$INSBASE
 10
-22.63054358132216
 20
-16.26869582111043
 30
0.0
  9
$EXTMIN
 10
-22.65368344906351
 20
-16.29183568885177
 30
0.0
  9
$EXTMAX
 10
56.0
 20
122.4373645003477
 30
0.0
  9
$LIMMIN
 10
0.0
 20
0.0
  9
$LIMMAX
 10
410.0
 20
287.0
  9
$ORTHOMODE
 70
     1
  9
$REGENMODE
 70
     1
  9
$FILLMODE
 70
     1
  9
$QTEXTMODE
 70
     0
  9
$MIRRTEXT
 70
     1
  9
$DRAGMODE
 70
     2
  9
$LTSCALE
 40
25.0
  9
$OSMODE
 70
     0
  9
$ATTMODE
 70
     1
  9
$TEXTSIZE
 40
3.5
  9
$TRACEWID
 40
1.0
  9
$TEXTSTYLE
  7
STANDARD
  9
$CLAYER
  8
0
  9
$CELTYPE
  6
BYLAYER
  9
$CECOLOR
 62
   256
  9
$DIMSCALE
 40
1.0
  9
$DIMASZ
 40
3.5
  9
$DIMEXO
 40
0.1
  9
$DIMDLI
 40
7.0
  9
$DIMRND
 40
0.0
  9
$DIMDLE
 40
0.0
  9
$DIMEXE
 40
1.8
  9
$DIMTP
 40
0.0
  9
$DIMTM
 40
0.0
  9
$DIMTXT
 40
3.5
  9
$DIMCEN
 40
1.5
  9
$DIMTSZ
 40
0.0
  9
$DIMTOL
 70
     0
  9
$DIMLIM
 70
     0
  9
$DIMTIH
 70
     0
  9
$DIMTOH
 70
     0
  9
$DIMSE1
 70
     0
  9
$DIMSE2
 70
     0
  9
$DIMTAD
 70
     0
  9
$DIMZIN
 70
     0
  9
$DIMBLK
  1

  9
$DIMASO
 70
     1
  9
$DIMSHO
 70
     0
  9
$DIMPOST
  1

  9
$DIMAPOST
  1

  9
$DIMALT
 70
     0
  9
$DIMALTD
 70
     2
  9
$DIMALTF
 40
25.39999999999999
  9
$DIMLFAC
 40
1.0
  9
$DIMTOFL
 70
     0
  9
$DIMTVP
 40
0.0
  9
$DIMTIX
 70
     0
  9
$DIMSOXD
 70
     0
  9
$DIMSAH
 70
     0
  9
$DIMBLK1
  1

  9
$DIMBLK2
  1

  9
$DIMSTYLE
  2
*UNNAMED
  9
$DIMCLRD
 70
     0
  9
$DIMCLRE
 70
     0
  9
$DIMCLRT
 70
     0
  9
$DIMTFAC
 40
1.0
  9
$DIMGAP
 40
0.09
  9
$LUNITS
 70
     2
  9
$LUPREC
 70
     2
  9
$SKETCHINC
 40
1.0
  9
$FILLETRAD
 40
3.5
  9
$AUNITS
 70
     0
  9
$AUPREC
 70
     0
  9
$MENU
  1

  9
$ELEVATION
 40
0.0
  9
$PELEVATION
 40
0.0
  9
$THICKNESS
 40
0.0
  9
$LIMCHECK
 70
     0
  9
$BLIPMODE
 70
     1
  9
$CHAMFERA
 40
0.0
  9
$CHAMFERB
 40
0.0
  9
$SKPOLY
 70
     0
  9
$TDCREATE
 40
2449049.554001736
  9
$TDUPDATE
 40
2449393.450462731
  9
$TDINDWG
 40
0.0131847222
  9
$TDUSRTIMER
 40
0.0131847222
  9
$USRTIMER
 70
     1
  9
$ANGBASE
 50
0.0
  9
$ANGDIR
 70
     0
  9
$PDMODE
 70
     3
  9
$PDSIZE
 40
0.0
  9
$PLINEWID
 40
0.0
  9
$COORDS
 70
     2
  9
$SPLFRAME
 70
     0
  9
$SPLINETYPE
 70
     6
  9
$SPLINESEGS
 70
     8
  9
$ATTDIA
 70
     0
  9
$ATTREQ
 70
     1
  9
$HANDLING
 70
     1
  9
$HANDSEED
  5
DF
  9
$SURFTAB1
 70
     6
  9
$SURFTAB2
 70
     6
  9
$SURFTYPE
 70
     6
  9
$SURFU
 70
     6
  9
$SURFV
 70
     6
  9
$UCSNAME
  2

  9
$UCSORG
 10
0.0
 20
0.0
 30
0.0
  9
$UCSXDIR
 10
1.0
 20
0.0
 30
0.0
  9
$UCSYDIR
 10
0.0
 20
1.0
 30
0.0
  9
$PUCSNAME
  2

  9
$PUCSORG
 10
0.0
 20
0.0
 30
0.0
  9
$PUCSXDIR
 10
1.0
 20
0.0
 30
0.0
  9
$PUCSYDIR
 10
0.0
 20
1.0
 30
0.0
  9
$USERI1
 70
     0
  9
$USERI2
 70
     0
  9
$USERI3
 70
     0
  9
$USERI4
 70
     0
  9
$USERI5
 70
     0
  9
$USERR1
 40
1.0
  9
$USERR2
 40
0.0
  9
$USERR3
 40
0.0
  9
$USERR4
 40
0.0
  9
$USERR5
 40
0.0
  9
$WORLDVIEW
 70
     1
  9
$SHADEDGE
 70
     3
  9
$SHADEDIF
 70
    70
  9
$TILEMODE
 70
     1
  9
$MAXACTVP
 70
    16
  9
$PINSBASE
 10
0.0
 20
0.0
 30
0.0
  9
$PLIMCHECK
 70
     0
  9
$PEXTMIN
 10
1.000000000000000E+20
 20
1.000000000000000E+20
 30
1.000000000000000E+20
  9
$PEXTMAX
 10
-1.000000000000000E+20
 20
-1.000000000000000E+20
 30
-1.000000000000000E+20
  9
$PLIMMIN
 10
0.0
 20
0.0
  9
$PLIMMAX
 10
12.0
 20
9.0
  9
$UNITMODE
 70
     0
  9
$VISRETAIN
 70
     0
  9
$PLINEGEN
 70
     0
  9
$PSLTSCALE
 70
     0
  9
$TREEDEPTH
 70
  3020
  9
$DWGCODEPAGE
  3
undefined
  0
ENDSEC
  0
SECTION
  2
TABLES
  0
TABLE
  2
VPORT
 70
     2
  0
VPORT
  2
*ACTIVE
 70
     0
 10
0.0
 20
0.0
 11
1.0
 21
1.0
 12
73.11079788853299
 22
58.7827794836489
 13
0.0
 23
0.0
 14
1.0
 24
1.0
 15
10.0
 25
10.0
 16
0.0
 26
0.0
 36
1.0
 17
0.0
 27
0.0
 37
0.0
 40
150.1029506095186
 41
1.275675675675675
 42
50.0
 43
0.0
 44
0.0
 50
0.0
 51
0.0
 71
     0
 72
 20000
 73
     1
 74
     2
 75
     0
 76
     0
 77
     0
 78
     0
  0
ENDTAB
  0
TABLE
  2
LTYPE
 70
     3
  0
LTYPE
  2
CONTINUOUS
 70
    64
  3
Ausgezogene Linie
 72
    65
 73
     0
 40
0.0
  0
LTYPE
  2
ITEM-STRICHGR
 70
    64
  3
-- -- -- -- -- 
 72
    65
 73
     2
 40
6.25
 49
5.0
 49
-1.25
  0
LTYPE
  2
ITEM-STRICHPGR
 70
    64
  3
____ . ____ . ____ . ____ . ____ . ____ . ____
 72
    65
 73
     4
 40
15.0
 49
10.0
 49
-2.5
 49
0.0
 49
-2.5
  0
ENDTAB
  0
TABLE
  2
LAYER
 70
     8
  0
LAYER
  2
0
 70
    64
 62
     7
  6
CONTINUOUS
  0
LAYER
  2
ITEM_50
 70
    64
 62
     7
  6
CONTINUOUS
  0
LAYER
  2
ITEM_25
 70
    64
 62
     3
  6
CONTINUOUS
  0
LAYER
  2
ITEM_HILFE
 70
    64
 62
     3
  6
CONTINUOUS
  0
LAYER
  2
ITEM_STPG
 70
    64
 62
     4
  6
ITEM-STRICHPGR
  0
LAYER
  2
ITEM_GSTRG
 70
     0
 62
     6
  6
ITEM-STRICHGR
  0
LAYER
  2
AIT$HILFE
 70
     0
 62
     7
  6
CONTINUOUS
  0
LAYER
  2
AIT$50
 70
     0
 62
     7
  6
CONTINUOUS
  0
ENDTAB
  0
TABLE
  2
STYLE
 70
     1
  0
STYLE
  2
STANDARD
 70
     0
 40
0.0
 41
1.0
 50
0.0
 71
     0
 42
3.5
  3
txt
  4

  0
ENDTAB
  0
TABLE
  2
VIEW
 70
     0
  0
ENDTAB
  0
TABLE
  2
UCS
 70
     0
  0
ENDTAB
  0
TABLE
  2
APPID
 70
     1
  0
APPID
  2
ACAD
 70
    64
  0
ENDTAB
  0
TABLE
  2
DIMSTYLE
 70
     0
  0
ENDTAB
  0
ENDSEC
  0
SECTION
  2
BLOCKS
  0
BLOCK
  8
0
  5
A7
  2
X0040112
 70
     0
 10
0.0
 20
0.0
 30
0.0
  3
X0040112
  0
ARC
  8
ITEM_50
  5
A8
 10
4.0
 20
4.000000000000802
 30
0.0
 40
4.0
 50
180.0
 51
270.0000000000293
  0
LINE
  8
ITEM_50
  5
A9
 10
0.0000000000020464
 20
36.00000000000083
 30
0.0
 11
0.0
 21
4.000000000000802
 31
0.0
  0
ARC
  8
ITEM_50
  5
AA
 10
4.000000000002046
 20
36.00000000000057
 30
0.0
 40
4.0
 50
90.0
 51
179.9999999999963
  0
LINE
  8
ITEM_50
  5
AB
 10
36.00000000000204
 20
40.00000000000083
 30
0.0
 11
4.000000000002046
 21
40.00000000000057
 31
0.0
  0
ARC
  8
ITEM_50
  5
AC
 10
36.00000000000207
 20
36.00000000000083
 30
0.0
 40
4.0
 50
0.0
 51
90.00000000000041
  0
ARC
  8
ITEM_50
  5
AD
 10
36.00000000000207
 20
4.000000000000802
 30
0.0
 40
4.0
 50
270.0
 51
0.0
  0
LINE
  8
ITEM_25
  5
AE
 10
37.50000000000213
 20
5.000000000000802
 30
0.0
 11
37.5000000000021
 21
35.00000000000083
 31
0.0
  0
LINE
  8
ITEM_25
  5
AF
 10
5.000000000002046
 20
2.500000000000802
 30
0.0
 11
35.00000000000213
 21
2.500000000000802
 31
0.0
  0
LINE
  8
ITEM_50
  5
B0
 10
4.000000000002046
 20
0.0000000000008029
 30
0.0
 11
36.00000000000207
 21
0.0000000000171738
 31
0.0
  0
LINE
  8
ITEM_50
  5
B1
 10
40.00000000000207
 20
4.000000000000802
 30
0.0
 11
40.00000000000207
 21
36.00000000000083
 31
0.0
  0
LINE
  8
ITEM_25
  5
B2
 10
35.0000000000021
 20
37.5000000000008
 30
0.0
 11
5.000000000002046
 21
37.50000000000083
 31
0.0
  0
LINE
  8
ITEM_25
  5
B3
 10
2.500000000002046
 20
35.00000000000083
 30
0.0
 11
2.500000000002046
 21
5.000000000000802
 31
0.0
  0
POINT
  8
ITEM_HILFE
  5
B4
 10
0.0000000000012506
 20
39.99999999999977
 30
0.0
  0
POINT
  8
ITEM_HILFE
  5
B5
 10
40.00000000000127
 20
39.99999999999977
 30
0.0
  0
POINT
  8
ITEM_HILFE
  5
B6
 10
40.00000000000127
 20
0.0
 30
0.0
  0
POINT
  8
ITEM_HILFE
  5
B7
 10
0.0000000000012434
 20
0.0000000000000071
 30
0.0
  0
LINE
  8
ITEM_50
  5
B8
 10
51.50000000000102
 20
40.00000000000898
 30
0.0
 11
50.00000000000102
 21
40.00000000000898
 31
0.0
  0
LINE
  8
ITEM_50
  5
B9
 10
50.00000000000102
 20
40.00000000000898
 30
0.0
 11
50.00000000000102
 21
0.0000000000089813
 31
0.0
  0
LINE
  8
ITEM_50
  5
BA
 10
50.00000000000102
 20
0.0000000000089813
 30
0.0
 11
51.50000000000102
 21
0.0000000000089813
 31
0.0
  0
ARC
  8
ITEM_50
  5
BB
 10
51.50000000000096
 20
2.500000000008981
 30
0.0
 40
2.5
 50
270.0
 51
0.0
  0
LINE
  8
ITEM_50
  5
BC
 10
54.00000000000102
 20
2.500000000008981
 30
0.0
 11
54.00000000000102
 21
37.50000000000898
 31
0.0
  0
ARC
  8
ITEM_50
  5
BD
 10
51.50000000000102
 20
37.50000000000898
 30
0.0
 40
2.5
 50
0.0
 51
89.99999999999998
  0
LINE
  8
ITEM_STPG
  5
BE
 10
17.52962773372859
 20
24.00000000000772
 30
0.0
 11
34.47037226627396
 21
24.00000000001639
 31
0.0
  0
LINE
  8
ITEM_STPG
  5
BF
 10
26.00000000000181
 20
32.47037226628474
 30
0.0
 11
26.00000000000073
 21
15.52962773373937
 31
0.0
  0
CIRCLE
  8
0
  5
C0
 10
26.00000000000127
 20
24.00000000001205
 30
0.0
 40
5.5
  0
LINE
  8
ITEM_STPG
  5
C1
 10
48.00000000000102
 20
24.00000000001005
 30
0.0
 11
56.00000000000102
 21
24.00000000001414
 31
0.0
  0
POINT
  8
ITEM_HILFE
  5
C2
 10
50.00000000000102
 20
24.00000000001107
 30
0.0
  0
POINT
  8
ITEM_HILFE
  5
C3
 10
50.00000000000102
 20
77.63853532381847
 30
0.0
  0
LINE
  8
ITEM_STPG
  5
C4
 10
48.00000000000102
 20
77.63853532381745
 30
0.0
 11
56.00000000000102
 21
77.63853532382154
 31
0.0
  0
CIRCLE
  8
0
  5
C5
 10
14.00000000000281
 20
77.63853532381946
 30
0.0
 40
5.5
  0
LINE
  8
ITEM_STPG
  5
C6
 10
14.00000000000227
 20
86.10890759009214
 30
0.0
 11
14.00000000000335
 21
69.16816305754676
 31
0.0
  0
LINE
  8
ITEM_STPG
  5
C7
 10
22.4703722662755
 20
77.63853532381511
 30
0.0
 11
5.529627733730123
 21
77.63853532382378
 31
0.0
  0
ARC
  8
ITEM_50
  5
C8
 10
51.50000000000102
 20
91.13853532381637
 30
0.0
 40
2.5
 50
0.0
 51
89.99999999999998
  0
LINE
  8
ITEM_50
  5
C9
 10
54.00000000000102
 20
56.13853532381638
 30
0.0
 11
54.00000000000102
 21
91.13853532381637
 31
0.0
  0
ARC
  8
ITEM_50
  5
CA
 10
51.50000000000096
 20
56.13853532381638
 30
0.0
 40
2.5
 50
270.0
 51
0.0
  0
LINE
  8
ITEM_50
  5
CB
 10
50.00000000000102
 20
53.63853532381638
 30
0.0
 11
51.50000000000102
 21
53.63853532381638
 31
0.0
  0
LINE
  8
ITEM_50
  5
CC
 10
50.00000000000102
 20
93.63853532381637
 30
0.0
 11
50.00000000000102
 21
53.63853532381638
 31
0.0
  0
LINE
  8
ITEM_50
  5
CD
 10
51.50000000000102
 20
93.63853532381637
 30
0.0
 11
50.00000000000102
 21
93.63853532381637
 31
0.0
  0
POINT
  8
ITEM_HILFE
  5
CE
 10
40.00000000000284
 20
53.63853532380741
 30
0.0
  0
POINT
  8
ITEM_HILFE
  5
CF
 10
0.0000000000028137
 20
53.6385353238074
 30
0.0
  0
POINT
  8
ITEM_HILFE
  5
D0
 10
0.0000000000028137
 20
93.63853532380719
 30
0.0
  0
POINT
  8
ITEM_HILFE
  5
D1
 10
40.00000000000284
 20
93.63853532380719
 30
0.0
  0
LINE
  8
ITEM_25
  5
D2
 10
37.50000000000204
 20
88.63853532380824
 30
0.0
 11
37.50000000000204
 21
58.6385353238082
 31
0.0
  0
LINE
  8
ITEM_25
  5
D3
 10
5.000000000001989
 20
91.13853532380821
 30
0.0
 11
35.00000000000204
 21
91.13853532380824
 31
0.0
  0
LINE
  8
ITEM_50
  5
D4
 10
0.0000000000020179
 20
57.6385353238082
 30
0.0
 11
0.0000000000020179
 21
89.63853532380824
 31
0.0
  0
LINE
  8
ITEM_50
  5
D5
 10
36.00000000000204
 20
53.6385353238082
 30
0.0
 11
4.000000000002017
 21
53.63853532382457
 31
0.0
  0
LINE
  8
ITEM_25
  5
D6
 10
35.00000000000204
 20
56.1385353238082
 30
0.0
 11
5.000000000001961
 21
56.1385353238082
 31
0.0
  0
LINE
  8
ITEM_25
  5
D7
 10
2.500000000001961
 20
58.6385353238082
 30
0.0
 11
2.500000000001989
 21
88.63853532380824
 31
0.0
  0
ARC
  8
ITEM_50
  5
D8
 10
4.000000000002017
 20
57.6385353238082
 30
0.0
 40
4.0
 50
180.0
 51
270.0
  0
ARC
  8
ITEM_50
  5
D9
 10
4.000000000002017
 20
89.63853532380824
 30
0.0
 40
4.0
 50
89.99999999999958
 51
180.0
  0
LINE
  8
ITEM_50
  5
DA
 10
4.000000000002046
 20
93.63853532380824
 30
0.0
 11
36.00000000000204
 21
93.63853532380798
 31
0.0
  0
ARC
  8
ITEM_50
  5
DB
 10
36.00000000000204
 20
89.63853532380798
 30
0.0
 40
4.0
 50
0.000000000003664
 51
90.0
  0
LINE
  8
ITEM_50
  5
DC
 10
40.00000000000204
 20
89.63853532380824
 30
0.0
 11
40.00000000000409
 21
57.6385353238082
 31
0.0
  0
ARC
  8
ITEM_50
  5
DD
 10
36.00000000000409
 20
57.6385353238082
 30
0.0
 40
4.0
 50
269.9999999999706
 51
360.0
  0
ENDBLK
  8
0
  5
DE
  0
ENDSEC
  0
SECTION
  2
ENTITIES
  0
LINE
  8
ITEM_25
  5
2C
 10
37.5000000000011
 20
-8.638152239845979
 30
0.0
 11
37.50000000000108
 21
41.36184776016234
 31
0.0
  0
LINE
  8
ITEM_25
  5
2D
 10
-14.99999999999792
 20
-11.13815223984597
 30
0.0
 11
35.0000000000011
 21
-11.13815223984597
 31
0.0
  0
LINE
  8
ITEM_25
  5
30
 10
35.00000000000108
 20
43.86184776016231
 30
0.0
 11
-14.99999999999792
 21
43.86184776016234
 31
0.0
  0
LINE
  8
ITEM_25
  5
31
 10
-17.49999999999792
 20
41.36184776016234
 30
0.0
 11
-17.49999999999792
 21
-8.638152239845979
 31
0.0
  0
POINT
  8
ITEM_HILFE
  5
32
 10
-19.99999999999872
 20
46.36184776016128
 30
0.0
  0
POINT
  8
ITEM_HILFE
  5
33
 10
40.00000000000025
 20
46.36184776016128
 30
0.0
  0
POINT
  8
ITEM_HILFE
  5
34
 10
40.00000000000025
 20
-13.63815223984678
 30
0.0
  0
POINT
  8
ITEM_HILFE
  5
35
 10
-19.99999999999872
 20
-13.63815223984677
 30
0.0
  0
LINE
  8
ITEM_50
  5
36
 10
51.5
 20
46.36184776017049
 30
0.0
 11
50.0
 21
46.36184776017049
 31
0.0
  0
LINE
  8
ITEM_50
  5
37
 10
50.0
 20
46.36184776017049
 30
0.0
 11
50.0
 21
-13.6381522398378
 31
0.0
  0
LINE
  8
ITEM_50
  5
38
 10
50.0
 20
-13.6381522398378
 30
0.0
 11
51.5
 21
-13.6381522398378
 31
0.0
  0
ARC
  8
ITEM_50
  5
39
 10
51.49999999999994
 20
-11.1381522398378
 30
0.0
 40
2.5
 50
270.0
 51
0.0
  0
LINE
  8
ITEM_50
  5
3A
 10
54.0
 20
-11.1381522398378
 30
0.0
 11
54.0
 21
43.86184776017049
 31
0.0
  0
ARC
  8
ITEM_50
  5
3B
 10
51.5
 20
43.86184776017049
 30
0.0
 40
2.5
 50
0.0
 51
89.99999999999998
  0
LINE
  8
ITEM_STPG
  5
40
 10
3.500000000001215
 20
20.36184776016015
 30
0.0
 11
28.5000000000012
 21
20.36184776016803
 31
0.0
  0
LINE
  8
ITEM_STPG
  5
44
 10
16.0000000000017
 20
32.86184776016408
 30
0.0
 11
16.00000000000071
 21
7.861847760164096
 31
0.0
  0
CIRCLE
  8
0
  5
45
 10
16.00000000000121
 20
20.36184776016409
 30
0.0
 40
10.5
  0
LINE
  8
ITEM_STPG
  5
60
 10
48.0
 20
20.36184776016246
 30
0.0
 11
56.0
 21
20.36184776016655
 31
0.0
  0
POINT
  8
ITEM_HILFE
  5
61
 10
49.99999999999999
 20
-13.63815223983781
 30
0.0
  0
POINT
  8
ITEM_HILFE
  5
7E
 10
49.99999999999999
 20
59.78368105134368
 30
0.0
  0
LINE
  8
ITEM_STPG
  5
7F
 10
48.0
 20
93.78368105134396
 30
0.0
 11
56.0
 21
93.78368105134805
 31
0.0
  0
CIRCLE
  8
0
  5
80
 10
3.999999999940524
 20
93.78368105134559
 30
0.0
 40
10.5
  0
LINE
  8
ITEM_STPG
  5
81
 10
3.99999999994003
 20
106.2836810513455
 30
0.0
 11
3.999999999941017
 21
81.28368105134559
 31
0.0
  0
LINE
  8
ITEM_STPG
  5
82
 10
16.49999999994052
 20
93.78368105134165
 30
0.0
 11
-8.500000000059472
 21
93.78368105134953
 31
0.0
  0
LINE
  8
ITEM_50
  5
83
 10
36.49999999994074
 20
119.7836810513353
 30
0.0
 11
-16.50000000005821
 21
119.783681051352
 31
0.0
  0
ARC
  8
ITEM_50
  5
84
 10
51.5
 20
117.2836810513519
 30
0.0
 40
2.5
 50
0.0
 51
89.99999999999998
  0
LINE
  8
ITEM_50
  5
85
 10
54.0
 20
62.28368105134369
 30
0.0
 11
54.0
 21
117.2836810513519
 31
0.0
  0
ARC
  8
ITEM_50
  5
86
 10
51.49999999999994
 20
62.28368105134369
 30
0.0
 40
2.5
 50
270.0
 51
0.0
  0
LINE
  8
ITEM_50
  5
87
 10
50.0
 20
59.78368105134369
 30
0.0
 11
51.5
 21
59.78368105134369
 31
0.0
  0
LINE
  8
ITEM_50
  5
88
 10
50.0
 20
119.7836810513519
 30
0.0
 11
50.0
 21
59.78368105134369
 31
0.0
  0
LINE
  8
ITEM_50
  5
89
 10
51.5
 20
119.7836810513519
 30
0.0
 11
50.0
 21
119.7836810513519
 31
0.0
  0
POINT
  8
ITEM_HILFE
  5
8A
 10
39.99999999994046
 20
59.78368105133472
 30
0.0
  0
POINT
  8
ITEM_HILFE
  5
8B
 10
-20.00000000005852
 20
59.78368105133471
 30
0.0
  0
POINT
  8
ITEM_HILFE
  5
8C
 10
-20.00000000005852
 20
119.7836810513427
 30
0.0
  0
POINT
  8
ITEM_HILFE
  5
8D
 10
39.99999999994045
 20
119.7836810513427
 30
0.0
  0
LINE
  8
ITEM_25
  5
8E
 10
37.49999999993966
 20
114.7836810513438
 30
0.0
 11
37.49999999993966
 21
64.78368105133552
 31
0.0
  0
LINE
  8
ITEM_25
  5
8F
 10
-15.00000000005934
 20
117.2836810513438
 30
0.0
 11
34.99999999993966
 21
117.2836810513438
 31
0.0
  0
LINE
  8
ITEM_50
  5
90
 10
-20.00000000005931
 20
63.28368105135204
 30
0.0
 11
-20.00000000005931
 21
116.283681051352
 31
0.0
  0
LINE
  8
ITEM_50
  5
91
 10
36.49999999994062
 20
59.78368105133535
 30
0.0
 11
-16.50000000006042
 21
59.78368105135204
 31
0.0
  0
LINE
  8
ITEM_25
  5
92
 10
34.99999999993966
 20
62.28368105133552
 30
0.0
 11
-15.00000000005937
 21
62.28368105133552
 31
0.0
  0
LINE
  8
ITEM_25
  5
93
 10
-17.50000000005937
 20
64.78368105133552
 30
0.0
 11
-17.50000000005934
 21
114.7836810513438
 31
0.0
  0
LINE
  8
ITEM_50
  5
98
 10
39.99999999993963
 20
116.2836810513355
 30
0.0
 11
39.99999999994172
 21
63.28368105133549
 31
0.0
  0
ARC
  8
ITEM_50
  5
9B
 10
-16.50000000005931
 20
116.283681051352
 30
0.0
 40
3.5
 50
89.99999999998196
 51
180.0
  0
ARC
  8
ITEM_50
  5
9C
 10
-16.50000000005931
 20
63.28368105135204
 30
0.0
 40
3.5
 50
180.0
 51
269.9999999999819
  0
ARC
  8
ITEM_50
  5
9D
 10
36.49999999994172
 20
63.28368105133535
 30
0.0
 40
3.5
 50
269.9999999999819
 51
0.0000000000022518
  0
ARC
  8
ITEM_50
  5
9E
 10
36.49999999993963
 20
116.2836810513353
 30
0.0
 40
3.5
 50
0.0000000000022391
 51
89.99999999998196
  0
ARC
  8
ITEM_50
  5
9F
 10
-16.49999999999951
 20
42.86184776017053
 30
0.0
 40
3.5
 50
89.99999999998196
 51
180.0
  0
LINE
  8
ITEM_50
  5
A0
 10
36.50000000000054
 20
46.36184776015385
 30
0.0
 11
-16.49999999999841
 21
46.36184776017053
 31
0.0
  0
ARC
  8
ITEM_50
  5
A1
 10
36.49999999999943
 20
42.86184776015385
 30
0.0
 40
3.5
 50
0.0000000000022391
 51
89.99999999998196
  0
LINE
  8
ITEM_50
  5
A2
 10
39.99999999999943
 20
42.86184776015399
 30
0.0
 11
40.00000000000152
 21
-10.13815223984602
 31
0.0
  0
ARC
  8
ITEM_50
  5
A3
 10
36.50000000000152
 20
-10.13815223984615
 30
0.0
 40
3.5
 50
269.9999999999819
 51
0.0000000000022518
  0
LINE
  8
ITEM_50
  5
A4
 10
36.50000000000042
 20
-13.63815223984615
 30
0.0
 11
-16.50000000000062
 21
-13.63815223982946
 31
0.0
  0
ARC
  8
ITEM_50
  5
A5
 10
-16.49999999999952
 20
-10.13815223982946
 30
0.0
 40
3.5
 50
180.0
 51
269.9999999999819
  0
LINE
  8
ITEM_50
  5
A6
 10
-19.99999999999952
 20
-10.13815223982946
 30
0.0
 11
-19.99999999999951
 21
42.86184776017053
 31
0.0
  0
ENDSEC
  0
EOF
